10,000 Reasons [C] - Matt Redman

VERSE
G|-------------|-----------|
D|-------------|-----------|
A|--3----------|--3-----5--|
E|----3--2--0--|-----3-----|
B|-------------|-----------|

G|---------------|---------------|
D|---------------|---------------|
A|--3--7--3-5-7--|--3--5---------|
E|---------------|--------3------|
B|---------------|---------------|

CHORUS
G|-------------|
D|-------------|
A|--3----5--7--| X3
E|----3--------|
B|-------------|

G|-------------|
D|-------------|
A|--3----5-----|
E|----3-----3--|
B|-------------|


***END***
G|---------------|
D|---------------|
A|--3--5--7------| X2
E|---------------|
B|---------------|

G|---------------|
D|---------------|
A|--3--5---------|
E|--------3------|
B|---------------|

G|-------------|-----------|
D|-------------|-----------|
A|-------------|--3-----5--|
E|-------2--0--|-----3-----|
B|-------------|-----------|

G|---------------|
D|---------------|
A|--3--7--3-5-7--|
E|---------------|
B|---------------|

G|---------------|
D|---------------|
A|--3--5--7------| X2
E|---------------|
B|---------------|

G|---------------|
D|---------------|
A|--3--5---------|
E|--------3------|
B|---------------|
Guitar Tab Creator is intended to store guitar tab created through the tool. It currently does not support in-line text editing. Any text you place in here will be lost. If you need to comment on your tab, please use the "Tab Notes" section located below.