Trial

(/) Slide Up  (\) Slide Down  (h) Hammer On  (p) Pull Off  (b) Bend (r) Release (v) Vibrato

E|----------------------|----------------------|----------------------|----------------------|--
B|----------------------|----------------------|----------------------|----------------------|--
G|----------------------|----------------------|----------------------|----------------------|--
D|----------------------|----------------------|----------------------|----------------------|--
A|----------------------|----------------------|--0--0--0----0--0--0--|--0--0--0----0--0--0--|--
E|--0--0--0----0--0--0--|--0--0--0----0--0--0--|----------------------|----------------------|--



E|------------------------|------------------------|------------------------|------------------------|-----
B|------------------------|------------------------|------------------------|------------------------|-----
G|------------------------|------------------------|------------------------|------------------------|-----
D|------------------------|-------------5----4-----|------------------------|-------------5----4-----|-----
A|-------------5----5--7--|---------------------7--|-------------5----5--7--|---------------------7--|-----
E|--0--0--0---------------|--0--0--0---------------|--0--0--0---------------|--0--0--0---------------|-----



E|------------------------|------------------------|------------------------|------------------------|--
B|------------------------|------------------------|------------------------|------------------------|--
G|------------------------|-------------5----4-----|------------------------|-------------5----4-----|--
D|-------------5----5--7--|---------------------7--|-------------5----5--7--|---------------------7--|--
A|--0--0--0---------------|--0--0--0---------------|--0--0--0---------------|--0--0--0---------------|--
E|------------------------|------------------------|------------------------|------------------------|--



E|----------------------|--
B|----------------------|--
G|----------------------|--
D|----------------------|--
A|----------------------|--
E|--0--0--0----0--0--0--|--



E|--------------|-----------------|--------------|-----------------|--
B|--------------|-----------------|--------------|-----------------|--
G|--------------|-----------------|--------------|-----------------|--
D|--------------|-----------------|--------------|-----------------|--
A|--------------|--7h9------------|--------------|--7h9------------|--
E|--5h7----0----|-------5h7----0--|--5h7----0----|-------5h7----0--|--



E|------------------------|------------------------|------------------------|------------------------|--
B|------------------------|------------------------|------------------------|------------------------|--
G|------------------------|------------------------|------------------------|------------------------|--
D|------------------------|-------------5----4-----|------------------------|-------------5----4-----|--
A|-------------5----5--7--|---------------------7--|-------------5----5--7--|---------------------7--|--
E|--0--0--0---------------|--0--0--0---------------|--0--0--0---------------|--0--0--0---------------|--



E|------------------------|------------------------|------------------------|------------------------|--
B|------------------------|------------------------|------------------------|------------------------|--
G|------------------------|-------------5----4-----|------------------------|-------------5----------|--
D|-------------5----5--7--|---------------------7--|-------------5----5--7--|------------------4--7--|--
A|--0--0--0---------------|--0--0--0---------------|--0--0--0---------------|--0--0--0---------------|--
E|------------------------|------------------------|------------------------|------------------------|--



E|----------------------|----------------------|----------------------|----------------------|--
B|----------------------|----------------------|----------------------|----------------------|--
G|----------------------|----------------------|----------------------|----------------------|--
D|----------------------|----------------------|----------------------|----------------------|--
A|----------------------|----------------------|--0--0--0----0--0--0--|--0--0--0----0--0--0--|--
E|--0--0--0----0--0--0--|--0--0--0----0--0--0--|----------------------|----------------------|--



E|-----------|--
B|-----------|--
G|-----------|--
D|-----------|--
A|-----------|--
E|--0--0--0--|--
http://www.guitartabcreator.com
Guitar Tab Creator is intended to store guitar tab created through the tool. It currently does not support in-line text editing. Any text you place in here will be lost. If you need to comment on your tab, please use the "Tab Notes" section located below.