There's So Much Energy in Us

(/) Slide Up  (\) Slide Down  (h) Hammer On  (p) Pull Off  (b) Bend (r) Release (v) Vibrato

E|-----------------------------------------------------------------------------------------
B|-----------------------------------------------------------------------------------------
G|-----7--------------------------------------6--7--7--------------------------------------
D|--0-----5--7--4--5--7--4--0--9--7--0--4--5-----------0--5--7--4--5--7--4--0--7--4--7-----
A|-----------------------------------------------------------------------------------------
E|-----------------------------------------------------------------------------------------



E|-----------------------------------------
B|-----------------------------------------
G|-----------------7--------------6--7-----
D|-----7--4--7--0-----5--7--4--5-----------
A|--4--------------------------------------
E|-----------------------------------------
http://www.guitartabcreator.com
Guitar Tab Creator is intended to store guitar tab created through the tool. It currently does not support in-line text editing. Any text you place in here will be lost. If you need to comment on your tab, please use the "Tab Notes" section located below.