Linkin Park - Faint (Demo)

(/) Slide Up  (\) Slide Down  (h) Hammer On  (p) Pull Off  (b) Bend (r) Release (v) Vibrato
E|---------------------------------------------------
B|---------------------------------------------------
G|---------------------------------------------------
D|--0--0--0--0--7--7--5----5--5--5--5--7--7--3-------
A|--0--0--0--0--7--7--5----5--5--5--5--7--7--3-------
E|--0--0--0--0--7--7--5----5--5--5--5--7--7--3-------



E|----------------------------------------------
B|----------------------------------------------
G|----------------------------------------------
D|--0--0----7--5--5----0--3----0--0----7--5--5--
A|--0--0----7--5--5----0--3----0--0----7--5--5--
E|--0--0----7--5--5----0--3----0--0----7--5--5--
http://www.guitartabcreator.com
Guitar Tab Creator is intended to store guitar tab created through the tool. It currently does not support in-line text editing. Any text you place in here will be lost. If you need to comment on your tab, please use the "Tab Notes" section located below.