Project Ending Riff

(/) Slide Up  (\) Slide Down  (h) Hammer On  (p) Pull Off  (b) Bend (r) Release (v) Vibrato
E|------------------------------------------------------------------------------------------------
B|------------------------------------------------------------------------------------------------
G|------------------------------------------------------------------------------------------------
D|-----------------------------8-----------------------6--6--6--4--6----4--4--4--2--4-------------
A|--15/9----9--9--9--7--9-----------7--7--7--5--7--------------------------------------12--12-----
E|------------------------------------------------------------------------------------------------



E|--------------
B|--------------
G|--------------
D|--------------
A|--12------12--
E|------10------
http://www.guitartabcreator.com
Guitar Tab Creator is intended to store guitar tab created through the tool. It currently does not support in-line text editing. Any text you place in here will be lost. If you need to comment on your tab, please use the "Tab Notes" section located below.