I Asked Her For A Lap Dance, But All I Got Was Sodomy!

(/) Slide Up  (\) Slide Down  (h) Hammer On  (p) Pull Off  (b) Bend (r) Release (v) Vibrato
E|------------------------------------------------------------------------------------
B|------------------------------------------------------------------------------------
G|------------------------------------------------------------------------------------
D|------------------------------------------------------------------------------------
A|-------------7h10-------------6h9-------------5h8-------------4h7-----5h8-----6h9---
E|-0-0-0-0-0-0------0-0-0-0-0-0-----0-0-0-0-0-0-----0-0-0-0-0-0-----0-0-----0-0-------



E|-----------------------------------------------------------------------
B|-----------------------------------------------------------------------
G|-----------------------------------------------------------------------
D|-----------------------------------------------------------------9-6-3-
A|-------------5h8-------------4h7-------------3h6-----4h7-----5h8-9-6-3-
E|-0-0-0-0-0-0-----0-0-0-0-0-0-----0-0-0-0-0-0-----0-0-----0-0-----9-6-3-



E|-------------------------------------------------------------------------------
B|-------------------------------------------------------------------------------
G|-------------------------------------------------------------------------------
D|-0-0--0-0-0-0-0---0-0--0-0-0-0-0---------0-0--0-0-0-0-0---0-0--0-0-0-0-0-------
A|-0-0--0-0-0-0-0---0-0--0-0-0-0-0---------0-0--0-0-0-0-0---0-0--0-0-0-0-0-------
E|-0-0--0-0-0-0-0---0-0--0-0-0-0-0---2b3---1-1--1-1-1-1-1---1-1--1-1-1-1-1---0-0-



E|---------------------------------------4-3-
B|-----------------------------------5-4-----
G|-------------------------------6-5---------
D|---------7-6-5-4-----------7-6-------------
A|-5----8------------5----8------------------
E|-------------------------------------------



E|-----------------------------
B|-----------------------------
G|-----------------------------
D|-1-2-1-2-1---1-2--2-1--------
A|-1-2-1-2-1---1-2--2-1--------
E|-1-2-1-2-1---1-2--2-1--------
http://www.guitartabcreator.com
Guitar Tab Creator is intended to store guitar tab created through the tool. It currently does not support in-line text editing. Any text you place in here will be lost. If you need to comment on your tab, please use the "Tab Notes" section located below.