Rise Of The Fallen - Back N' Forth

(/) Slide Up  (\) Slide Down  (h) Hammer On  (p) Pull Off  (b) Bend (r) Release (v) Vibrato

Rise Of The Fallen

Chorus/Intro
E|-------------------------|-----------------------|-----------
B|-------------------------|-----------------------|-----------
G|--0--1--1--1--1--2--2----|--5--5--5--5--5--4--4--|--7--5--4--
D|--0--1--1--1--1--2--2r0--|--5--5--5--5--5--4--4--|--7--5--4--
A|-------------------------|--3--3--3--3--3--2--2--|--5--3--2--
E|-------------------------|-----------------------|-----------


Verse
E|--------------------------------------------------|-----
B|--------------------------------------------------|-----
G|--0--0--0--0--0--0--2--3--0--0--0--0--0--0--5--3--|--0--
D|--0--------0--------2--3--0--------0--------5--3--|--0--
A|--------------------------------------------------|-----
E|--------------------------------------------------|-----
http://www.guitartabcreator.com
Guitar Tab Creator is intended to store guitar tab created through the tool. It currently does not support in-line text editing. Any text you place in here will be lost. If you need to comment on your tab, please use the "Tab Notes" section located below.