Publicity

(/) Slide Up  (\) Slide Down  (h) Hammer On  (p) Pull Off  (b) Bend (r) Release (v) Vibrato


E|--------------------|-----------------------------------
B|--------------------|-----------------------------------
G|--------------5--5--|--5--2--2--2--2--4--4--2--4--3--2--
D|--2--2--4--4--5--5--|--5--2--2--2--2--4--4--2--4--3--2--
A|--2--2--4--4--3--3--|--3--0--0--0--0--2--2--0--2--1--0--
E|--0--0--2--2--------|-----------------------------------



E|--------------------|-----------------------------------
B|--------------------|-----------------------------------
G|--------------------|-----5--5--7--7--2--2--2--4--3--2--
D|--2--2--4--4--5--5--|--2--5--5--7--7--2--2--2--4--3--2--
A|--2--2--4--4--5--5--|--2--3--5--5--5--0--0--0--2--1--0--
E|--0--0--2--2--3--3--|--0-----3--------------------------



E|-----------------|-----------------
B|-----------------|-----------------
G|-----------7-----|-----------------
D|--2--4--5--7--7--|--2--4--5--7--5--
A|--2--4--5--5--7--|--2--4--5--7--5--
E|--0--2--3-----5--|--0--2--3--5--3--



E|-----------------|--------------
B|-----------------|--------------
G|--5--2-----------|--5--7--------
D|--5--2--2--4--5--|--5--7--7--5--
A|--3--0--2--4--5--|--3--5--7--5--
E|--------0--2--3--|--------5--3--



E|-----------------------------|-----------------------------
B|-----------------------------|-----------------------------
G|--------5--5--7--7-----------|--------5--5-----------------
D|--2--2--5--5--7--7--5--5--4--|--2--2--5--5--7--7--5--5--4--
A|--2--2--3--3--5--5--5--5--4--|--2--2--3--3--7--7--5--5--4--
E|--0--0--------------3--3--2--|--0--0--------5--5--3--3--2--
http://www.guitartabcreator.com
Guitar Tab Creator is intended to store guitar tab created through the tool. It currently does not support in-line text editing. Any text you place in here will be lost. If you need to comment on your tab, please use the "Tab Notes" section located below.