Obsession

(/) Slide Up  (\) Slide Down  (h) Hammer On  (p) Pull Off  (b) Bend (r) Release (v) Vibrato


E|--------------
B|--------------
G|--9--5--------
D|--9--5--5--7--
A|--7--3--5--7--
E|--------3--5--



E|-----------------------------
B|-----------------------------
G|-----------------------------
D|--7--7--5--3--3--7--9--5--3--
A|--7--7--5--3--3--7--9--5--3--
E|-----------------------------



E|-----------------
B|-----------------
G|-----5-----------
D|--7--5--5--3--5--
A|--7--3--5--3--5--
E|--5-----3--1--3--
http://www.guitartabcreator.com
Guitar Tab Creator is intended to store guitar tab created through the tool. It currently does not support in-line text editing. Any text you place in here will be lost. If you need to comment on your tab, please use the "Tab Notes" section located below.