On My Own

(/) Slide Up  (\) Slide Down  (h) Hammer On  (p) Pull Off  (b) Bend (r) Release (v) Vibrato


E|--------------------------------------------|--
B|--------------------------------------------|--
G|--------------------------------------------|--
D|--7--7------10--10------5--5----2--2--5--5--|--
A|--7--7------10--10------5--5----2--2--5--5--|--
E|--5--5------8---8-------3--3----0--0--3--3--|--



E|-----------------|--
B|-----------------|--
G|-----------------|--
D|--7--10--12--14--|--
A|--7--10--12--14--|--
E|--5--8---10--12--|--



E|-----------------------|-----------------|-----------
B|-----------------------|-----------------|-----------
G|--9--9--9--9--9--2--2--|--5--5--5--5--7--|-----------
D|--9--9--9--9--9--2--2--|--5--5--5--5--7--|--9--7--5--
A|--7--7--7--7--7--------|--3--3--3--3--5--|--9--7--5--
E|-----------------------|-----------------|--7--5--3--
http://www.guitartabcreator.com
Guitar Tab Creator is intended to store guitar tab created through the tool. It currently does not support in-line text editing. Any text you place in here will be lost. If you need to comment on your tab, please use the "Tab Notes" section located below.