How I Bleed

(/) Slide Up  (\) Slide Down  (h) Hammer On  (p) Pull Off  (b) Bend (r) Release (v) Vibrato


E|--------------------------------------------------------------------------------------|--
B|--------------------------------------------------------------------------------------|--
G|--------------------------------------------------------------------------------------|--
D|--2--------2--------2--------2--------2--2--5--------5--------5--------5--------5--5--|--
A|--2--------2--------2--------2--------2--2--5--------5--------5--------5--------5--5--|--
E|--0--0--0--0--0--0--0--0--0--0--0--0--0--0--3--3--3--3--3--3--3--3--3--3--3--3--3--3--|--



E|---------------------------------|--------------|--
B|---------------------------------|--------------|--
G|---------------------------------|--------------|--
D|--2--2--2----5--5--5----7--7--7--|--7--5--4--5--|--
A|--2--2--2----5--5--5----7--7--7--|--7--5--4--5--|--
E|--0--0--0----3--3--3----5--5--5--|--5--3--2--3--|--



E|-----------------|--
B|-----------------|--
G|--------7--5-----|--
D|--2--9--7--5--7--|--
A|--2--9--5--3--7--|--
E|--0--7--------5--|--



E|-----------------------|-----------------------
B|-----------------------|-----------------------
G|-----------------------|-----------------------
D|--2--2--2--4--4--4--4--|--5--5--5--7--5--7--5--
A|--2--2--2--4--4--4--4--|--5--5--5--7--5--7--5--
E|--0--0--0--2--2--2--2--|--3--3--3--5--3--5--3--
http://www.guitartabcreator.com
Guitar Tab Creator is intended to store guitar tab created through the tool. It currently does not support in-line text editing. Any text you place in here will be lost. If you need to comment on your tab, please use the "Tab Notes" section located below.