Shanbe

(/) Slide Up  (\) Slide Down  (h) Hammer On  (p) Pull Off  (b) Bend (r) Release (v) Vibrato


E|---------------------------------------------------------------------------------------------
B|--------------7------------------------------------------------------------------------------
G|-----------7-----7--------------------------------7--5--7/9\7--------5--------5/12-----------
D|--------7-----------7--------5--------5--------7------------------5--------5-----------------
A|-----7--------------------5--------5--------7------------------3--------3-----------------7--
E|--5--------------------3--------3--------5------------------------------------------5--5-----



E|-------------------------------------------------------------------------------------------------
B|-----------5-----------5-----------------------------------5----------------------5--------------
G|--------5-----------5-----5-----------------------------5-----5----------------5--5--5--------5--
D|-----5-----------5-----------5-----------------5-----5-----------5-----7--7r0--5--5--5-----5-----
A|--3-----------3-----------------------7--3--3-----3-----------------7--7--7----3--3--3--3--------
E|--------------------------------5--5--------------------------------5--5--5----------------------



E|--------------------------------------------
B|-----------2--2--2--------------------------
G|--------2-----2--2-----------7b7b7h9--------
D|--5--0--------0--0--2--2--4-----------------
A|--5-----------------2--2--4-----------------
E|--3-----------------0--0--2-----------------
http://www.guitartabcreator.com
Guitar Tab Creator is intended to store guitar tab created through the tool. It currently does not support in-line text editing. Any text you place in here will be lost. If you need to comment on your tab, please use the "Tab Notes" section located below.