This is my tab!

(/) Slide Up  (\) Slide Down  (h) Hammer On  (p) Pull Off  (b) Bend (r) Release (v) Vibrato


E|--------------0------------------------------------------7----3------3--6-----------------------
B|---------------------------3-----------4-----6--5-----------------------------1-----------------
G|-----2-----5------------------2-----------6--------3-----------------4--6--0-----3-----6--------
D|--1---------------------------------------------------4-----------------4-----------3-----6-----
A|--------4--------6--7---------------4-------------------------2------3-----------------------6--
E|---------------------------------3----------------------------3------4--------------------------



E|------------------------------------------------------------------------------------19------
B|-----2-----6----------------------------------0--10/12p4r7------------------------------19--
G|----------------------------------------8-------------------17------------------20----------
D|--2-----5---------10--13--------14---------3----------------------------18------------------
A|--------------10----------4--8------11--------------------------15--------------------------
E|--------------------------------------------------------------------16------18--------------
http://www.guitartabcreator.com
Guitar Tab Creator is intended to store guitar tab created through the tool. It currently does not support in-line text editing. Any text you place in here will be lost. If you need to comment on your tab, please use the "Tab Notes" section located below.