Jake

(/) Slide Up  (\) Slide Down  (h) Hammer On  (p) Pull Off  (b) Bend (r) Release (v) Vibrato


E|----------------------------------------------------------------
B|----------------------------------------------------------------
G|----------------------12h14p------------------------------------
D|------------14p12b13--------------------------------------------
A|--1/11--12---------------------------------------------------4--
E|-------------------------------------------------------------2--



E|-----------3--
B|--------------
G|--------------
D|--------------
A|--4--8--3--2--
E|--2--6--1--3--
http://www.guitartabcreator.com
Guitar Tab Creator is intended to store guitar tab created through the tool. It currently does not support in-line text editing. Any text you place in here will be lost. If you need to comment on your tab, please use the "Tab Notes" section located below.