Overcome

(/) Slide Up  (\) Slide Down  (h) Hammer On  (p) Pull Off  (b) Bend (r) Release (v) Vibrato

E|------7------------------|--
B|--10-----9--10--7--9-----|--
G|----------------------9--|--
D|-------------------------|--
A|-------------------------|--
E|-------------------------|--



E|-------------------|----------------------9--|--
B|--15--14\7--9--10--|--15--14\7--9--10--------|--
G|-------------------|-------------------9-----|--
D|-------------------|-------------------------|--
A|-------------------|-------------------------|--
E|-------------------|-------------------------|--



E|-------------------|-------------------------
B|--15--14\7--9--10--|--15--14\7--9--10--------
G|-------------------|-------------------9--6--
D|-------------------|-------------------------
A|-------------------|-------------------------
E|-------------------|-------------------------



E|------9--10--12--|--9----------|--9------10--|--9------9--|--
B|--10-------------|-----12--10--|-----10------|-----12-----|--
G|-----------------|-------------|-------------|------------|--
D|-----------------|-------------|-------------|------------|--
A|-----------------|-------------|-------------|------------|--
E|-----------------|-------------|-------------|------------|--



E|-------------|-------------|--|--12--12--12--|--12--12--12--|--|--
B|--9--10--10--|--9--10--10--|--|--9---10--10--|--9---10--10--|--|--
G|-------------|-------------|--|--------------|--------------|--|--
D|-------------|-------------|--|--------------|--------------|--|--
A|-------------|-------------|--|--------------|--------------|--|--
E|-------------|-------------|--|--------------|--------------|--|--
http://www.guitartabcreator.com
Guitar Tab Creator is intended to store guitar tab created through the tool. It currently does not support in-line text editing. Any text you place in here will be lost. If you need to comment on your tab, please use the "Tab Notes" section located below.