Never Been To Spain

(/) Slide Up  (\) Slide Down  (h) Hammer On  (p) Pull Off  (b) Bend (r) Release (v) Vibrato

Well I never been to Spain But I kinda like the music
E|-------------------------------------------------------------------------------
B|-----------------------2----14--12--10--------------------------------9--7--5--
G|--1--------------------2-------------------------------------1-----------------
D|--2--------------------2----14--12--11-----------------------2--------9--7--6--
A|--2----------------------------------------------------------2-----------------
E|-------------------------------------------------------------------------------

See the ladies are insane there And they sure know how to use it
E|-----------------------------------------------------------------------------------------
B|---------------------2------------14--12--10------------------------------------9--7--5--
G|--1------------------2-------------------------------------------------1-----------------
D|--2------------------2------------14--12--11---------------------------2--------9--7--6--
A|--2--------------------------------------------------------------------2-----------------
E|-----------------------------------------------------------------------------------------

http://www.guitartabcreator.com
Guitar Tab Creator is intended to store guitar tab created through the tool. It currently does not support in-line text editing. Any text you place in here will be lost. If you need to comment on your tab, please use the "Tab Notes" section located below.