Helpless

(/) Slide Up  (\) Slide Down  (h) Hammer On  (p) Pull Off  (b) Bend (r) Release (v) Vibrato


E|----------------------------------------------------------------------------
B|----------------------------------------------------------------------------
G|----------------------------------------------------------------------------
D|----------------2--3----3--3----3--5----------------------------------------
A|--5--5----5--3------------------------3--1--1--1--3--0----------------------
E|--------------------------------------------------------3--3----1--3--1--3--



E|----------------------------------------------------------------12-------
B|---------10--------------13-----------------10---------------------------
G|-------------10--------------12-----------------10----------12-----------
D|--10/12--------------14--------------10/12--------------14---------------
A|-------------------------------------------------------------------------
E|-------------------------------------------------------------------------



E|---------------------------------------------10----------------------
B|---------10------------------13------------------10--------------13--
G|-------------10----------12--------------10----------10------12------
D|--10/12--------------14--------------12------------------14----------
A|---------------------------------------------------------------------
E|---------------------------------------------------------------------



E|-----------------------------------------------------------------12--
B|---------10--------------13------------------10----------------------
G|-------------10--------------12------------------10----------12------
D|--10/12--------------14--------------10--12--------------14----------
A|---------------------------------------------------------------------
E|---------------------------------------------------------------------



E|---------------------------------10------10------8---
B|---------10--------------13------11------10------8---
G|-------------10------------------10------10------9---
D|--10/12--------------14----------12------12------10--
A|-----------------------------------------------------
E|-----------------------------------------------------



E|---------------------------------------------------------------------------------------------
B|---------------------------------------------------------------------------------------------
G|--10------10------10------10------10------10------10------10------12------12------12---------
D|------10------10------10------10------10------10------10------10------10------10------10-----
A|---------------------------------------------------------------------------------------------
E|---------------------------------------------------------------------------------------------



E|-----------------------------------------------------------------------------------------
B|------------------10--------------10--------------13--------------13--------------10-----
G|--12------10--------------10--------------10--------------10--------------10-------------
D|------10------10------10------10------10------10------10------10------10------10---------
A|-----------------------------------------------------------------------------------------
E|-----------------------------------------------------------------------------------------



E|-----------------------------------------
B|--------------10--------------13---------
G|------10--------------12--------------12r
D|--10------10------10------10------10-----
A|-----------------------------------------
E|-----------------------------------------
http://www.guitartabcreator.com
Guitar Tab Creator is intended to store guitar tab created through the tool. It currently does not support in-line text editing. Any text you place in here will be lost. If you need to comment on your tab, please use the "Tab Notes" section located below.