tracks of my tears

(/) Slide Up  (\) Slide Down  (h) Hammer On  (p) Pull Off  (b) Bend (r) Release (v) Vibrato
E|--------------------------------------------------------------------------------------
B|--8-----8--5-----------5-----5--7-----------8-----8--5-----------5--3--1--0-----------
G|-----7--------5-----5-----5--------7-----7-----7--------5-----5--5--4--2--0--0-----0--
D|--9--------5-----5--------------7-----7-----9--------5-----5--------------------0-----
A|--------------------------------------------------------------------------------------
E|--------------------------------------------------------------------------------------



E|--------------------------------------
B|--8--------8--5--3--5--------7--------
G|-----7-----7--5--4-----5--------7-----
D|--9-----9-----------5-----5--7-----7--
A|--------------------------------------
E|--------------------------------------
http://www.guitartabcreator.com
Guitar Tab Creator is intended to store guitar tab created through the tool. It currently does not support in-line text editing. Any text you place in here will be lost. If you need to comment on your tab, please use the "Tab Notes" section located below.