CHICKEN

(/) Slide Up  (\) Slide Down  (h) Hammer On  (p) Pull Off  (b) Bend (r) Release (v) Vibrato (x) mute


E|--------------------------------------------------------15-15-15-15--14--13-----15---------------------
B|------------------11--10---9----9-------9---------------15-15-15-15--14--13-----15---------------------
G|--10--------------12--11--10---10------10---------------15-15-15-15--14--13-----15---------------------
D|--10--------------12--11--10---10------10--------------------------------------------------------------
A|-------------------------------------------------------------------------------------------------------
E|-------------------------------------------------------------------------------------------------------


E|-------------------------------------------------------------------------------------------------------
B|-----12-12-12-12-12-12-11--10--------------------------------14h15-------------------------------------
G|-----12-12-12-12-12-12-11--10----------------------------15-----------10-10-10----10/12---10-----------
D|--12-12-12-12-12-12-12-11--10------------------------17---------------10-10-10----10/12---10-----------
A|-------------------------------------------------------------------------------------------------------
E|-------------------------------------------------------------------------------------------------------


E|---------------------------------------------------------------------15--------------------------------
B|--------------14h15p14------------16--14h15-------8---5/6------15-------18-----------------------------
G|----------15-----------15----15-------------------8---6/7-------------------16/17-17h18p17\15----15-15-
D|--15--17------------------17------------------------------------------------------------------17-------
A|-------------------------------------------------------------------------------------------------------
E|-------------------------------------------------------------------------------------------------------


E|-------------------------------------------------------------------------------------------------------
B|--8---6------------------------------------------------------------------------------------------------
G|--8---6-------15--14---14--14-----14-----------------------------------15----15----12--11--12----------
D|-----------------------x---x---------17-15-17----9--10--12------15h17-----17-------12--11--12----------
A|-----------------------15--15-------------------10--12--14---------------------------------------------
E|-------------------------------------------------------------------------------------------------------
-
E|-------------------------------------------------------------------------------------------------------
B|-----------15------------------------------15----------------------------------------------------------
G|--------15---15---12-12-11-12-----------15----15---12-12-11-12--12------------15----------------------12
D|--15-17-----------12-12-11-12-----15-17------------12-12-11-12--12---15-16-17----18-15----------------12
A|---------------------------------------------------------------------------------------18-16h17--------
E|------------------------------------------------------------------------------------------------18-16--
Guitar Tab Creator is intended to store guitar tab created through the tool. It currently does not support in-line text editing. Any text you place in here will be lost. If you need to comment on your tab, please use the "Tab Notes" section located below.