The War - Josh Record

(/) Slide Up  (\) Slide Down  (h) Hammer On  (p) Pull Off  (b) Bend (r) Release (v) Vibrato


E|-------------------------------------------------------------------------
B|-------------------------------------------------------------------------
G|-------------------------------------------------------------------------
D|-------------------------------------------------------------------------
A|-----2--2/4--4/6--6---------6-----4v--------2--2/4--4\2--------6-----4v--
E|--0------------------0--7v-----2------2--0---------------4/7v-----2------



E|------------------------------------------------------
B|------------------------------------------------------
G|--2--2--2--2--2--2--2--2----5--5--5--5----------------
D|--3--3--3--3--3--3--3--3----5--5--5--5----5--5--5--5--
A|--3--3--3--3--3--3--3--3----3--3--3--3----5--5--5--5--
E|----------------------------3--3--3--3----3--3--3--3--



E|--7--7--9--11----7--7--9--7--
B|--7--7--9--11----7--7--9--7--
G|-----------------------------
D|-----------------------------
A|-----------------------------
E|-----------------------------
http://www.guitartabcreator.com
Guitar Tab Creator is intended to store guitar tab created through the tool. It currently does not support in-line text editing. Any text you place in here will be lost. If you need to comment on your tab, please use the "Tab Notes" section located below.