Untitled Showcase Song

(/) Slide Up  (\) Slide Down  (h) Hammer On  (p) Pull Off  (b) Bend (r) Release (v) Vibrato
E|----------------------------------5----------------------------------------------
B|-8-8h10p8-8-10-8-7-8-10-5-7-8p7-4-----8-8h10p8-7-8/10\12----10-8--7h8p7----5-4\3-
G|-9-9------7------7-7-7--7-7b8-7-5-----9------------------7--------------7--7-5-0-
D|----------------------------------7----------------------------------------------
A|---------------------------------------------------------------------------------
E|---------------------------------------------------------------------------------



E|-----------------10----8---7----7----------------------------------
B|--8----8/10--12--------10--8--7-8--8p7--5--8--7--5-----------------
G|--9----------9----------------7h9--9-7--7--9--7--7-----------------
D|-------------------------------------------------------------------
A|-------------------------------------------------------------------
E|-------------------------------------------------------------------



E|--0--5--7----10----7--8-----10--8--7--3--5--5--7----7/10--8--10--8--8--3/5--5--7-----
B|--8--8--8----12----6--9-----12--6--4--4--6--4--5\3--------7---------6--4----3--5-----
G|--9----------9-----7--10----10--7--5--5--7--5--0----------8---------7--5----4--0-----
D|----------------------------------------------------------------------------5--------
A|-------------------------------------------------------------------------------------
E|-------------------------------------------------------------------------------------



E|--
B|--
G|--
D|--
A|--
E|--
http://www.guitartabcreator.com
Guitar Tab Creator is intended to store guitar tab created through the tool. It currently does not support in-line text editing. Any text you place in here will be lost. If you need to comment on your tab, please use the "Tab Notes" section located below.