Jackie's Solo

(/) Slide Up  (\) Slide Down  (h) Hammer On  (p) Pull Off  (b) Bend (r) Release (v) Vibrato

E|------------------------------------------------------------------------------------------
B|------------------------------------------------------------------------8--8h10p8h10v-----
G|--7--5v----------------5----------------------------------------5--7/9--------------------
D|---------5--------5/7-----7--5--3--5--5--3--5p3----------3h5/7----------------------------
A|------------8--5---------------------------------5--3h5-----------------------------------
E|------------------------------------------------------------------------------------------



E|------------------------------10--13b--10------------10------------10--------------------------
B|--------------------------10---------------13p10---------13p10---------13p10-------------------
G|--10----------10v--12--12b------------------------12b-----------12b-----------12h13p12p10------
D|------10h12v-------------------------------------------------------------------------------12--
A|-----------------------------------------------------------------------------------------------
E|-----------------------------------------------------------------------------------------------



E|---------------------------------------------------10------12------13------13b13b13br--10-----
B|-----------------------------------------------10------10------10------10---------------------
G|--10--12h13p12p10------10--12b14r--10---------------------------------------------------------
D|-------------------12------------------12v--v-------------------------------------------------
A|----------------------------------------------------------------------------------------------
E|----------------------------------------------------------------------------------------------



E|--15b15b15b13--13p10--10h13--------------------------------------------------------
B|-----------------------------15v--13--15--15v--13--15--15--15b15r13----15p13--10v--
G|-----------------------------------------------------------------------------------
D|-----------------------------------------------------------------------------------
A|-----------------------------------------------------------------------------------
E|-----------------------------------------------------------------------------------
http://www.guitartabcreator.com
Guitar Tab Creator is intended to store guitar tab created through the tool. It currently does not support in-line text editing. Any text you place in here will be lost. If you need to comment on your tab, please use the "Tab Notes" section located below.