electric guitar song 1

(/) Slide Up  (\) Slide Down  (h) Hammer On  (p) Pull Off  (b) Bend (r) Release (v) Vibrato


E|---------------------------------------------------------------------------
B|---------------------------------------------------------------------------
G|---------------------------------------------------------------------------
D|----------------------10--9--7--------------------------------10--9--7--9--
A|------------10--9--7------------10--9--7------------10--9--7---------------
E|--7--10--7--------------------------------7--10--7-------------------------



E|---------------------------------------------------------------------------
B|---------------------------------------------------------------------------
G|---------------------------------------------------------------------------
D|----------------------10--9--7--------------------------------10--9--7--9--
A|------------10--9--7------------10--9--7------------10--9--7---------------
E|--7--10--7--------------------------------7--10--7-------------------------



E|-----------------------------------------
B|-----------------------------------------
G|-----------------------------------------
D|--7--7----7--7--7----5--5--5----3--3--3--
A|--5--5----5--5--5----3--3--3----1--1--1--
E|-----------------------------------------



E|-----------------------------------------------
B|-----------------------------------------------
G|-----------------------------------------------
D|--7--7--7----7--7--7----10--10--10----3--3--3--
A|--5--5--5----5--5--5----8---8--10-----1--1--1--
E|-----------------------------------------------



E|-----------------------------------------
B|-----------------------------------------
G|-----------------------------------------
D|--7--7----7--7--7----5--5--5----3--3--3--
A|--5--5----5--5--5----3--3--3----1--1--1--
E|-----------------------------------------



E|-----------------------------------------------
B|-----------------------------------------------
G|-----------------------------------------------
D|--7--7--7----7--7--7----10--10--10----3--3--3--
A|--5--5--5----5--5--5----8---8--10-----1--1--1--
E|-----------------------------------------------



E|-----------------------------------------------------------------------
B|-----------------------------------------------------------------------
G|-----------------------------------------------------------------------
D|-----------------------------------------------------------------------
A|--3--0--0--0--0--3--0--0--0--0--3--0--0--0--0--------------------------
E|--3--0--0--0--0--3--0--0--0--0--3--0--0--0--0--7--6--5--0--5--4--3--0--



E|---------------------------------------------------------------------
B|---------------------------------------------------------------------
G|---------------------------------------------------------------------
D|---------------------------------------------------------------------
A|--3--0--0--0--0--3--0--0--0--0--3--0--0--0--0------------------------
E|--3--0--0--0--0--3--0--0--0--0--3--0--0--0--0--7--6--5--0--5--4--3v--



E|-----------------------------------------------------------------------
B|-----------------------------------------------------------------------
G|-----------------------------------------------------------------------
D|-----------------------------------------------------------------------
A|--3--0--0--0--0--3--0--0--0--0--3--0--0--0--0--------------------------
E|--3--0--0--0--0--3--0--0--0--0--3--0--0--0--0--7--6--5--0--5--4--3--0--



E|---------------------------------------------------------------------
B|---------------------------------------------------------------------
G|---------------------------------------------------------------------
D|---------------------------------------------------------------------
A|--3--0--0--0--0--3--0--0--0--0--3--0--0--0--0------------------------
E|--3--0--0--0--0--3--0--0--0--0--3--0--0--0--0--7--6--5--0--5--4--3v--



E|-----------------------------------------
B|-----------------------------------------
G|-----------------------------------------
D|--7--7----7--7--7----5--5--5----3--3--3--
A|--5--5----5--5--5----3--3--3----1--1--1--
E|-----------------------------------------



E|-----------------------------------------------
B|-----------------------------------------------
G|-----------------------------------------------
D|--7--7--7----7--7--7----10--10--10----3--3--3--
A|--5--5--5----5--5--5----8---8--10-----1--1--1--
E|-----------------------------------------------



E|-----------------------------------------
B|-----------------------------------------
G|-----------------------------------------
D|--7--7----7--7--7----5--5--5----3--3--3--
A|--5--5----5--5--5----3--3--3----1--1--1--
E|-----------------------------------------



E|-----------------------------------------------
B|-----------------------------------------------
G|-----------------------------------------------
D|--7--7--7----7--7--7----10--10--10----3--3--3--
A|--5--5--5----5--5--5----8---8--10-----1--1--1--
E|-----------------------------------------------



E|-----------------------------------------------------------------------
B|-----------------------------------------------------------------------
G|-----------------------------------------------------------------------
D|-----------------------------------------------------------------------
A|--3--0--0--0--0--3--0--0--0--0--3--0--0--0--0--------------------------
E|--3--0--0--0--0--3--0--0--0--0--3--0--0--0--0--7--6--5--0--5--4--3--0--



E|---------------------------------------------------------------------
B|---------------------------------------------------------------------
G|---------------------------------------------------------------------
D|---------------------------------------------------------------------
A|--3--0--0--0--0--3--0--0--0--0--3--0--0--0--0------------------------
E|--3--0--0--0--0--3--0--0--0--0--3--0--0--0--0--7--6--5--0--5--4--3v--



E|-----------------------------------------------------------------------
B|-----------------------------------------------------------------------
G|-----------------------------------------------------------------------
D|-----------------------------------------------------------------------
A|--3--0--0--0--0--3--0--0--0--0--3--0--0--0--0--------------------------
E|--3--0--0--0--0--3--0--0--0--0--3--0--0--0--0--7--6--5--0--5--4--3--0--



E|---------------------------------------------------------------------
B|---------------------------------------------------------------------
G|---------------------------------------------------------------------
D|---------------------------------------------------------------------
A|--3--0--0--0--0--3--0--0--0--0--3--0--0--0--0------------------------
E|--3--0--0--0--0--3--0--0--0--0--3--0--0--0--0--7--6--5--0--5--4--3v--
Guitar Tab Creator is intended to store guitar tab created through the tool. It currently does not support in-line text editing. Any text you place in here will be lost. If you need to comment on your tab, please use the "Tab Notes" section located below.