Grenade

(/) Slide Up  (\) Slide Down  (h) Hammer On  (p) Pull Off  (b) Bend (r) Release (v) Vibrato

E|---------------------------------------------------------------------------------------------
B|---------------------------------------------------------------------------------------------
G|--10--10-------10--10-------10--10--10--10--10--12----9--9----9--7--9----9--7--9--7----------
D|----------7------------7-------------------------------------------------------------7-------
A|---------------------------------------------------------------------------------------------
E|---------------------------------------------------------------------------------------------



E|----------------------------------------------------------------------------------------
B|----------------------------------------------------------------------------------------
G|--10--10-------10--10-------10--10--10--10--10--12----9--9----9--7--9----9--9--7--9--7--
D|----------7------------7----------------------------------------------------------------
A|----------------------------------------------------------------------------------------
E|----------------------------------------------------------------------------------------



E|------------------------------------------------------------------------
B|--10--10--8--8-------------8--8------------------8--8-------------------
G|----------------10--9--10--------10--10--9--7----------10--10--9--7-----
D|---------------------------------------------------------------------7--
A|------------------------------------------------------------------------
E|------------------------------------------------------------------------



E|-----------------------------8--8-----------------------------------------
B|--10--10--8--8---------8--8--------10--------8----8--8--8------8--8-------
G|----------------10--9--------------------10----------------10-------------
D|--------------------------------------------------------------------------
A|--------------------------------------------------------------------------
E|--------------------------------------------------------------------------



E|-----------------------------
B|--8--8--8------8--10---------
G|-----------10---------10--7--
D|-----------------------------
A|-----------------------------
E|-----------------------------



E|--------------8--------------------
B|-----------------11--8--10---------
G|--10--10--10----------------10--7--
D|-----------------------------------
A|-----------------------------------
E|-----------------------------------



E|---------------------------------------------------------8--8--8--10-------------------
B|--10--8------8----------8--10--10--10--8------8--10-------------------8--10--8---------
G|---------10---------10--------------------10---------10-------------------------10--7--
D|---------------------------------------------------------------------------------------
A|---------------------------------------------------------------------------------------
E|---------------------------------------------------------------------------------------



E|--------------------------------------------------
B|------8------10--8------8---------8--8--8---------
G|--10-----10---------10-----7---------------10--7--
D|--------------------------------------------------
A|--------------------------------------------------
E|--------------------------------------------------



E|------------------------------------------------8--10-------------------------
B|--8--8--8--8-------------8--8--8--8------8--10-------------8--8--8--8---------
G|--------------10--9------------------10--------------------------------10--9--
D|------------------------------------------------------------------------------
A|------------------------------------------------------------------------------
E|------------------------------------------------------------------------------



E|-----------------------
B|-----------------------
G|--10--12--9--10--9--7--
D|-----------------------
A|-----------------------
E|-----------------------
http://www.guitartabcreator.com
Guitar Tab Creator is intended to store guitar tab created through the tool. It currently does not support in-line text editing. Any text you place in here will be lost. If you need to comment on your tab, please use the "Tab Notes" section located below.