Hello, Hello

(/) Slide Up  (\) Slide Down  (h) Hammer On  (p) Pull Off  (b) Bend (r) Release (v) Vibrato


E|--------------------------------------------------|-----------------------------|--------------------
B|--------------------------------------------------|-----------------------------|--------------------
G|--------------------------4-----------------------|-----------------------------|--9--9--9--9--9--9--
D|--------5-----5--------------5--4-----------------|--7--------7--7--7--7--7--7--|--9--9--9--9--9--9--
A|--7--7-----7-----7--7--7-----------5--4--5--------|--7-----7--7--7--7--7--7--7--|--7--7--7--7--7--7--
E|--------------------------------------------3--0--|--5--5-----5--5--5--5--5--5--|--------------------



E|--------|--------------------------|--------------------------------------|--------------|-----------
B|--------|--------------------------|--------------------------------------|--------------|-----------
G|--9--9--|--------------------------|--------------------------------------|--------------|--2--2--2--
D|--9--9--|--7--7--7--7--7--7--7--7--|--2-----------------2--------------2--|--5--5--5--5--|--2--2--2--
A|--7--7--|--7--7--7--7--7--7--7--7--|--2-----------------2--------------2--|--5--5--5--5--|--0--0--0--
E|--------|--5--5--5--5--5--5--5--5--|--0--0--3--0--3--0--0--0--3--0--3--0--|--3--3--3--3--|-----------



E|-----|--0--0--0--0--0--0--0--0--|--3--3--3--3--|--5--5--5--5--|-----------------|--
B|-----|--5--5--5--5--5--5--5--5--|--3--3--3--3--|--5--5--5--5--|--5--5--5--5--5--|--
G|--2--|--4--4--4--4--4--4--4--4--|--0--0--0--0--|--6--6--6--6--|--4--4--4--4--4--|--
D|--2--|--2--2--2--2--2--2--2--2--|--0--0--0--0--|--7--7--7--7--|--6--6--6--6--6--|--
A|--0--|--2--2--2--2--2--2--2--2--|--2--2--2--2--|--------------|--7--7--7--7--7--|--
E|-----|--0--0--0--0--0--0--0--0--|--3--3--3--3--|--------------|--0--0--0--0--0--|--



E|---------------------------------------------
B|---------------------------------------------
G|--------------9------------------------------
D|--------7--6--6------------------------------
A|--7--7--------7------10--12--10------10------
E|--0--0-----------12--------------12------12--
http://www.guitartabcreator.com
Guitar Tab Creator is intended to store guitar tab created through the tool. It currently does not support in-line text editing. Any text you place in here will be lost. If you need to comment on your tab, please use the "Tab Notes" section located below.