Cantico 134

(/) Slide Up  (\) Slide Down  (h) Hammer On  (p) Pull Off  (b) Bend (r) Release (v) Vibrato


E|-----------------------------------------------------
B|-------------2/6--4--4--4--9--8--9--8--9--11--9--9v--
G|--3/6--5--5------------------------------------------
D|-----------------------------------------------------
A|-----------------------------------------------------
E|-----------------------------------------------------



E|--------------------------------------------------------------
B|-----------------2/6--4--4------4--9--8--9--8-----8--4-----6--
G|--3/6--5--5------------------------------------8--------5-----
D|--------------------------------------------------------------
A|--------------------------------------------------------------
E|--------------------------------------------------------------
http://www.guitartabcreator.com
Guitar Tab Creator is intended to store guitar tab created through the tool. It currently does not support in-line text editing. Any text you place in here will be lost. If you need to comment on your tab, please use the "Tab Notes" section located below.