Seether

(/) Slide Up  (\) Slide Down  (h) Hammer On  (p) Pull Off  (b) Bend (r) Release (v) Vibrato


E|-----3--------------3--------------3--5--
B|--1--1--1--0--1--1--1--1--0--1-----------
G|--2--2--2--2--2-----------------1--1-----
D|--2--2--2--2--2--2--2--2--2--2--2--2-----
A|--------------3--3--3--3--3--3--2--2-----
E|-----------------------------------------



E|--8--7h8--10--8--7--8--7--8--8p7--7h8--10--12-----------------------------------------------
B|-----------------------------------------------10--9--10--12--18--15h17--18--17--15---------
G|-------------------------------------------------------------------------------------15-----
D|--------------------------------------------------------------------------------------------
A|--------------------------------------------------------------------------------------------
E|--------------------------------------------------------------------------------------------



E|-------------------------------------
B|-------------------------------------
G|--14--15--17--19--15--17--19--18-----
D|-------------------------------------
A|-------------------------------------
E|-------------------------------------
http://www.guitartabcreator.com
Guitar Tab Creator is intended to store guitar tab created through the tool. It currently does not support in-line text editing. Any text you place in here will be lost. If you need to comment on your tab, please use the "Tab Notes" section located below.