Everyday

(/) Slide Up  (\) Slide Down  (h) Hammer On  (p) Pull Off  (b) Bend (r) Release (v) Vibrato
E|--------------------------------------
B|--------------------------------------
G|-----------7--7--7--4--4--4--5--5-----
D|--2--2--2--7--7--7--5--5--5--5--5-----
A|--2--2--2--5--5--5--3--3--3--3--3-----
E|--------------------------------------



E|--------------
B|--------------
G|-----5--4--7--
D|--2--5--4--7--
A|--2--3--2--5--
E|--------------
http://www.guitartabcreator.com
Guitar Tab Creator is intended to store guitar tab created through the tool. It currently does not support in-line text editing. Any text you place in here will be lost. If you need to comment on your tab, please use the "Tab Notes" section located below.