To be played with "seether" solo notes

(/) Slide Up  (\) Slide Down  (h) Hammer On  (p) Pull Off  (b) Bend (r) Release (v) Vibrato


E|---------------
B|--6--5--8--11--
G|--7--6--9--12--
D|--5--4--7--10--
A|---------------
E|---------------



E|-----------------
B|--8--9---10--11--
G|--9--10--11--12--
D|--7--8---9---10--
A|-----------------
E|-----------------



E|-----------------
B|--8--10--11--10--
G|--9--11--12--11--
D|--7--9---10--9---
A|-----------------
E|-----------------



E|-----
B|--6--
G|--7--
D|--5--
A|-----
E|-----
http://www.guitartabcreator.com
Guitar Tab Creator is intended to store guitar tab created through the tool. It currently does not support in-line text editing. Any text you place in here will be lost. If you need to comment on your tab, please use the "Tab Notes" section located below.