begin 3 x

(/) Slide Up  (\) Slide Down  (h) Hammer On  (p) Pull Off  (b) Bend (r) Release (v) Vibrato


E|--------------------------------------------------------------------------
B|--------------------------------------------------------------------------
G|-----------------------------------------1--2--3-----1--2--3--------------
D|-----1--2--3-----1--2--3-----1--2--3--3-----------3-----------3--3--1-----
A|--3-----------3-----------3--------------------------------------------3--
E|--------------------------------------------------------------------------



E|-----------------------------------------------------------------------------
B|-----------------------------------------------------------------------------
G|--3--3--1-----------------1--3--1--3-----------------------3--5--------3--5--
D|-----------3--1--3--1--3-----------------1--2--3-----3--5--------3--5--------
A|--------------------------------------3-----------3--------------------------
E|-----------------------------------------------------------------------------



E|-------------------------------------------------------------------------------
B|-------------------------------------------------------------------------------
G|--------5--7--------5--7--7b9-----------------------------1--2--3-----1--2--3--
D|--5--7--------5--7----------------1--2--3-----1--2--3--3-----------3-----------
A|-------------------------------3-----------3-----------------------------------
E|-------------------------------------------------------------------------------



E|----------------------------------------------------
B|----------------------------------------------------
G|--------3--5--------3--5--------5--7--------5--7b9--
D|--3--5--------3--5--------5--7--------5--7----------
A|----------------------------------------------------
E|----------------------------------------------------
http://www.guitartabcreator.com
Guitar Tab Creator is intended to store guitar tab created through the tool. It currently does not support in-line text editing. Any text you place in here will be lost. If you need to comment on your tab, please use the "Tab Notes" section located below.