Lead Guitar Tab 1

(/) Slide Up  (\) Slide Down  (h) Hammer On  (p) Pull Off  (b) Bend (r) Release (v) Vibrato

E|------------------------------------------------------------------------------------
B|------------------------------------------------------------------------------------
G|-----9--7-------------------------------------9--7--10------------------------------
D|--7--------10-----9-----7------------------7---------------9-----7------------------
A|------------------------------------------------------------------------------------
E|---------------0-----0----------------------------------0-----0---------------------



E|----------------------------------------------------------------------------------------------------
B|----------------------------------------------------------------------------------------------------
G|-----9--7--------------------9--7--10--------------9--7---------------------------------------9-----
D|--7--------10-----7-------7---------------7-----7--------10-----7-----7--10h9--7-----------9--------
A|----------------------------------------------------------------------------------10/7--7-----------
E|---------------0-----0-----------------0-----0---------------0-----0--------------------------------
http://www.guitartabcreator.com
Guitar Tab Creator is intended to store guitar tab created through the tool. It currently does not support in-line text editing. Any text you place in here will be lost. If you need to comment on your tab, please use the "Tab Notes" section located below.