mirai nikki

(/) Slide Up  (\) Slide Down  (h) Hammer On  (p) Pull Off  (b) Bend (r) Release (v) Vibrato


E|----------------------------------------------------------------------------------------------------
B|----------------------------------------------------------------------------------------------------
G|-----11--9------7-----------------11--9------12--9h11p9h7---------7---------11--9------7------------
D|--7----------------11--9--7----7---------------------------11--7---------7----------------11--9--7--
A|----------------------------------------------------------------------------------------------------
E|----------------------------------------------------------------------------------------------------



E|--------------------------------------------------------------------------
B|-------------------------------------6--6--------9------------------------
G|-----11--9------12--9h11p9h7---------------9--9-----7----7--9-------7--9--
D|--7---------------------------11--7------------------------------7--------
A|--------------------------------------------------------------------------
E|--------------------------------------------------------------------------
http://www.guitartabcreator.com
Guitar Tab Creator is intended to store guitar tab created through the tool. It currently does not support in-line text editing. Any text you place in here will be lost. If you need to comment on your tab, please use the "Tab Notes" section located below.