Våran underbara låt<3

(/) Slide Up  (\) Slide Down  (h) Hammer On  (p) Pull Off  (b) Bend (r) Release (v) Vibrato


E|--------------------------------------------------
B|--------6-----------------------4-----------------
G|-----------6--------5--------------4--------3-----
D|-----6-----------------6-----4-----------------4--
A|--4--------------6--------2--------------4--------
E|--------------4-----------------------2-----------



E|--------------------------------------------------------
B|--------6-----------------------4-----------------------
G|-----------6--------5--------------4--------3-----------
D|-----6-----------------6-----4-----------------4--------
A|--4--------------6--------2--------------4--------------
E|--------------4-----------------------2-----------------
http://www.guitartabcreator.com
Guitar Tab Creator is intended to store guitar tab created through the tool. It currently does not support in-line text editing. Any text you place in here will be lost. If you need to comment on your tab, please use the "Tab Notes" section located below.