Acoustic Solo "Bulls In The Bronx" (PTV)

(/) Slide Up  (\) Slide Down  (h) Hammer On  (p) Pull Off  (b) Bend (r) Release (v) Vibrato

E|--------------------------------------5--------5--------6--------6--------
B|--------------------7--------7-----------7--------7--------8--------8-----
G|--7--------7-----------5--------5-----------5--------5--------7--------7--
D|-----8--5-----8--5--------7--------7--------------------------------------
A|--------------------------------------------------------------------------
E|--------------------------------------------------------------------------



E|--------------------------------------5--------5--------6--------6--------
B|--------------------7--------7-----------7--------7--------8--------8-----
G|--7--------7-----------5--------5-----------5--------5--------7--------7--
D|-----8--5-----8--5--------7--------7--------------------------------------
A|--------------------------------------------------------------------------
E|--------------------------------------------------------------------------



E|--10--------------10--9--8----------8----------11----------11----------
B|------11------11------------10---------10----------10----------10------
G|----------12--------------------11---------11----------11----------11--
D|-----------------------------------------------------------------------
A|-----------------------------------------------------------------------
E|-----------------------------------------------------------------------



E|--10------------------9--10--------------10--13--12--11--------------11----------
B|------11---------------------11------11------------------10------10------10------
G|----------12--14--15-------------12--------------------------11--------------11--
D|---------------------------------------------------------------------------------
A|---------------------------------------------------------------------------------
E|---------------------------------------------------------------------------------



E|--8---------------------------------15--
B|-----10--7--10--11--13------11--15------
G|------------------------12--------------
D|----------------------------------------
A|----------------------------------------
E|----------------------------------------
http://www.guitartabcreator.com
Guitar Tab Creator is intended to store guitar tab created through the tool. It currently does not support in-line text editing. Any text you place in here will be lost. If you need to comment on your tab, please use the "Tab Notes" section located below.