Sure

(/) Slide Up  (\) Slide Down  (h) Hammer On  (p) Pull Off  (b) Bend (r) Release (v) Vibrato


E|------------------------------------------------------------------
B|------------------------------------------------------------------
G|------7-------7-------7-------7-------7-------7-------7-------7---
D|----8---8---8---8---8---8---8---8---8---8---8---8---8---8---8---8-
A|-10-------9-------8-------7-------6-------6-----------------------
E|--------------------------------------------------6-------6-------



E|-----------------------------------------------------------------
B|---------------------8-------8-------7-------7-------------------
G|-----5-------5-----8---8---8---8---5---5---5---5-----3-------3---
D|---6---6---6---6-----------------------------------5---5---5---5-
A|-----------------6-------6-------5-------5-----------------------
E|-4-------4---------------------------------------3-------3-------
http://www.guitartabcreator.com
Guitar Tab Creator is intended to store guitar tab created through the tool. It currently does not support in-line text editing. Any text you place in here will be lost. If you need to comment on your tab, please use the "Tab Notes" section located below.