Crystal Rose

(/) Slide Up  (\) Slide Down  (h) Hammer On  (p) Pull Off  (b) Bend (r) Release (v) Vibrato

(W|WW) Whole (H|HH) Half (Q|QQ) Quarter (E|EE) 8th (S|SS) 16th (T|TT) 32nd (X|XX) 64th


E|----------------------------------------|----------------------------------------------------|--
B|----------------------------------------|----------------------------------------------------|--
G|----------------------------------------|----------------------------------------------------|--
D|--------17------17------17------17------|--17\15--------15------15------15------15------15v--|--
A|--15--------15------15------15------15--|---------13--------13------13------13------13-------|--
E|----------------------------------------|----------------------------------------------------|--


E|-----------------------------------------------
B|-----------------------------------------------
G|-----------------------------------------------
D|--17\15--------15------15------15------15------
A|---------13--------13------13------13------13--
E|-----------------------------------------------
http://www.guitartabcreator.com
Guitar Tab Creator is intended to store guitar tab created through the tool. It currently does not support in-line text editing. Any text you place in here will be lost. If you need to comment on your tab, please use the "Tab Notes" section located below.