Shoegaze 2

(/) Slide Up  (\) Slide Down  (h) Hammer On  (p) Pull Off  (b) Bend (r) Release (v) Vibrato


E|--------------
B|--------------
G|--------------
D|-----------2--
A|--7--7--5--2--
E|--8--5--3-----



E|-------------------
B|-------------------
G|--12--11--7--5--4--
D|--10--10--9--7--5--
A|-------------------
E|-------------------
http://www.guitartabcreator.com
Guitar Tab Creator is intended to store guitar tab created through the tool. It currently does not support in-line text editing. Any text you place in here will be lost. If you need to comment on your tab, please use the "Tab Notes" section located below.