Shoegaze 1

(/) Slide Up  (\) Slide Down  (h) Hammer On  (p) Pull Off  (b) Bend (r) Release (v) Vibrato


E|---------------
B|--3--5--8---1--
G|---------------
D|---------------
A|--5--7--10--3--
E|---------------



E|--------------------------------------12--
B|--------------------3--1--0-----------12--
G|-----4--5--5--4--0-----------4--2--0--12--
D|--5---------------------------------------
A|------------------------------------------
E|------------------------------------------
http://www.guitartabcreator.com
Guitar Tab Creator is intended to store guitar tab created through the tool. It currently does not support in-line text editing. Any text you place in here will be lost. If you need to comment on your tab, please use the "Tab Notes" section located below.