Memories

(/) Slide Up  (\) Slide Down  (h) Hammer On  (p) Pull Off  (b) Bend (r) Release (v) Vibrato


E|-----------------------------------------------------------------------------------------
B|-----------------------------------------------------------------------------------------
G|-----------------------------------------------------------------------------------------
D|--------7--5-----5--7--------------------------------------------------7--5-----5--7-----
A|--------------7--------3--3--0--3--0--3--5-----------------------------------7-----------
E|--5--5--------------------------------------3--3--0--3--0--3--4--5--5--------------------



E|--5--5--5--5--|--8---8---8---8---|--7--7--7--7--|--5--5--5--5--
B|--5--5--5--5--|--8---8---8---8---|--8--8--8--8--|--5--5--5--5--
G|--5--5--5--5--|--9---9---9---9---|--7--7--7--7--|--5--5--5--5--
D|--------------|--10--10--10--10--|--9--9--9--9--|--------------
A|--------------|------------------|--------------|--------------
E|--------------|------------------|--------------|--------------
http://www.guitartabcreator.com
Guitar Tab Creator is intended to store guitar tab created through the tool. It currently does not support in-line text editing. Any text you place in here will be lost. If you need to comment on your tab, please use the "Tab Notes" section located below.