Accident

(/) Slide Up  (\) Slide Down  (h) Hammer On  (p) Pull Off  (b) Bend (r) Release (v) Vibrato


E|------------------------------------------------------9---9---8---9---7--7--6--7--
B|------------------------------------------------------10--10--9---10--8--8--7--8--
G|----------------------------9--7------7--9--7------7--9---9---8---9---7--7--6--7--
D|--7--7--7--10--7--7--7--10--------10-----------10-----11--11--10--11--9--9--8--9--
A|----------------------------------------------------------------------------------
E|----------------------------------------------------------------------------------



E|------------------------------------------------------9---9---11--11--17-----17--
B|------------------------------------------------------10--10--10--10--14-----14--
G|----------------------------9--7------7--9--7------7--9---9---9---9---14-----14--
D|--7--7--7--10--7--7--7--10--------10-----------10-----11--11--11--11--14-----14--
A|---------------------------------------------------------------------------------
E|---------------------------------------------------------------------------------
http://www.guitartabcreator.com
Guitar Tab Creator is intended to store guitar tab created through the tool. It currently does not support in-line text editing. Any text you place in here will be lost. If you need to comment on your tab, please use the "Tab Notes" section located below.