Stay Put Bass Tab

(/) Slide Up  (\) Slide Down  (h) Hammer On  (p) Pull Off  (b) Bend (r) Release (v) Vibrato
E|------------------------------------------------------
B|------------------------------------------------------
G|------------------------------------------------------
D|------------------------------------------------------ Verse
A|--9----9--9----5--5--5--5-----------------7--7--7--7-- play this 4 times then...
E|-----------------------------5----5--5----------------



E|------------------------------------------------------------------
B|------------------------------------------------------------------
G|------------------------------------------------------------------ on the fifth time play this as
D|------------------------------------------------------------------ enter the chorus
A|--9----9--9----5--5--5--5-----------------7--7--7--7--7--7--7--7--
E|-----------------------------5----5--5----------------------------



E|------------------------------------------------------------------
B|------------------------------------------------------------------ Chorus
G|------------------------------------------------------------------
D|------------------------------------------------------------------
A|--9------9--9----5----5----5--5-----------------7----7----7--7----
E|-----------------------------------5----5--5----------------------


Guitar Tab Creator is intended to store guitar tab created through the tool. It currently does not support in-line text editing. Any text you place in here will be lost. If you need to comment on your tab, please use the "Tab Notes" section located below.