Something

(/) Slide Up  (\) Slide Down  (h) Hammer On  (p) Pull Off  (b) Bend (r) Release (v) Vibrato

E|--------------------------------------------------------------------------------------
B|--------------------------------------------------------------------------------------
G|--1--------1--------1-----1--------1--------1-----1--------1--------1-----1--------1--
D|--------3--------3-----3--------3--------3-----3--------3--------3-----3--------3-----
A|-----0--------0--------------0--------0--------------0--------0--------------0--------
E|--------------------------------------------------------------------------------------



E|-----------------3--3--3--3--2--2--2--2--1--1--1--1--4--4--4--4--3--3--3--3--2--2--2--
B|--------------------------------------------------------------------------------------
G|--------1-----1-----------------------------------------------------------------------
D|-----3-----3--3-----------------------------------------------------------------------
A|--0-----------------------------------------------------------------------------------
E|--------------------------------------------------------------------------------------



E|--2--1--1--1--1--4--4--4--4--3--3--3--3--2--2--2--2--1--1--1--1--4--4--4--4--3--3--3--
B|--------------------------------------------------------------------------------------
G|--------------------------------------------------------------------------------------
D|--------------------------------------------------------------------------------------
A|--------------------------------------------------------------------------------------
E|--------------------------------------------------------------------------------------



E|--3--2--2--2--2--1--1--1--1--4--4--4--4--5--5--5--5--4--4--4--4--3--3--3--3--6--6--6--
B|--------------------------------------------------------------------------------------
G|--------------------------------------------------------------------------------------
D|--------------------------------------------------------------------------------------
A|--------------------------------------------------------------------------------------
E|--------------------------------------------------------------------------------------



E|--6--5--5--5--5--4--4--4--4--3--3--3--3--6--6--6--6--3--3--3--3--2--2--2--2--1--1--1--
B|--------------------------------------------------------------------------------------
G|--------------------------------------------------------------------------------------
D|--------------------------------------------------------------------------------------
A|--------------------------------------------------------------------------------------
E|--------------------------------------------------------------------------------------



E|--1--
B|-----
G|-----
D|-----
A|-----
E|-----
http://www.guitartabcreator.com
Guitar Tab Creator is intended to store guitar tab created through the tool. It currently does not support in-line text editing. Any text you place in here will be lost. If you need to comment on your tab, please use the "Tab Notes" section located below.