Surf Song

(/) Slide Up  (\) Slide Down  (h) Hammer On  (p) Pull Off  (b) Bend (r) Release (v) Vibrato

E|-------------------------------------------------------------------------------
B|-------------------------------------------------------------------------------
G|-------------------------------------------------------------------------------
D|--0--3--5----3--0-------------------0--1----3--1--3--0----------4--4--4--4--4--
A|-------------------3--1--0-------3----------------------3--1-------------------
E|----------------------------3--------------------------------------------------



E|--------------------------------------------------------------------------------------------------
B|------------------8-------------------------------------------------------------------------------
G|-----8--8--8--10-----10--8--7--8----8--7--7--7--8--7--5-------------------------------------------
D|--8------------------------------------------------------8--7--5----5--3--3--3--5--7--5--3--5--3--
A|--------------------------------------------------------------------------------------------------
E|--------------------------------------------------------------------------------------------------



E|--------------------------------
B|--------------------------------
G|--------------------------------
D|--3--5--5--5--7--8--7--5--7--5--
A|--------------------------------
E|--------------------------------
http://www.guitartabcreator.com
Guitar Tab Creator is intended to store guitar tab created through the tool. It currently does not support in-line text editing. Any text you place in here will be lost. If you need to comment on your tab, please use the "Tab Notes" section located below.