You're Dreaming 94 BPM

(/) Slide Up  (\) Slide Down  (h) Hammer On  (p) Pull Off  (b) Bend (r) Release (v) Vibrato

Stave 1:

E|--------------------------------
A|--------------------------------
D|--------------------------------
G|--5--5--5-----------3--2--------
B|--5--5--5-----------3--2--------
E|--3--3--3-----------1--0--------

Stave 2:

E|--------------------------------------------------
A|--------------------------------------------------
D|--------------5--5--5--5--------------7--7--9--9--
G|--7--7--7--7--5--5--5--5--5--5--5--5--7--7--9--9--
B|--7--7--7--7--3--3--3--3--5--5--5--5--5--5--7--7--
E|--5--5--5--5--------------3--3--3--3--------------

http://www.guitartabcreator.com
Guitar Tab Creator is intended to store guitar tab created through the tool. It currently does not support in-line text editing. Any text you place in here will be lost. If you need to comment on your tab, please use the "Tab Notes" section located below.