Road of Sacrifice 160 BPM

(/) Slide Up  (\) Slide Down  (h) Hammer On  (p) Pull Off  (b) Bend (r) Release (v) Vibrato

Stave 1:

E|--------------------------
A|--------------------------
D|-----------------------4--
G|--2--5--7--5--2--5--7--4--
B|--2--5--7--5--2--5--7--2--
E|--0--3--5--3--0--3--5-----

Stave 2:

E|--------------------------------------------------------------
A|--------------------------------------------------------------
D|--------------------------------------------------------------
G|--2--2--2--2--5--5--5--5--5--5--------7--7--7--------5--5--5--
B|--2--2--2--2--5--5--5--5--5--5--------7--7--7--------5--5--5--
E|--0--0--0--0--3--3--3--3--3--3--------5--5--5--------3--3--3--

Stave 3:

E|--------------------------------------------------------------
A|--------------------------------------------------------------
D|--------------------------------------------------------------
G|--2--2--2--2--5--5--5--5--5--5--------7--7--7--------5--------
B|--2--2--2--2--5--5--5--5--5--5--------7--7--7--------5--------
E|--0--0--0--0--3--3--3--3--3--3--------5--5--5--------3--------

http://www.guitartabcreator.com
Guitar Tab Creator is intended to store guitar tab created through the tool. It currently does not support in-line text editing. Any text you place in here will be lost. If you need to comment on your tab, please use the "Tab Notes" section located below.