Paint My Face (165 BPM)

(/) Slide Up  (\) Slide Down  (h) Hammer On  (p) Pull Off  (b) Bend (r) Release (v) Vibrato

Stave 1:

E|-----------------------------------------
A|-----------------------------------------
D|--9--9--9--9--9--9--9--9--9--9--9--7--7--
G|--9--9--9--9--9--9--9--9--9--9--9--7--7--
B|--7--7--7--7--7--7--7--7--7--7--7--5--5--
E|-----------------------------------------

Stave 2:

E|-------------------------------------------
A|-------------------------------------------
D|--9--9--9--9--9--9--9--9--9--9--9--12--12--
G|--9--9--9--9--9--9--9--9--9--9--9--12--12--
B|--7--7--7--7--7--7--7--7--7--7--7--10--10--
E|-------------------------------------------

Stave 3:

E|--------------------------------------------------
A|--------------------------------------------------
D|--------------------------------------------------
G|--7--7--7--7--5--5--5--5--2--2--2--2--2--2--2--2--
B|--7--7--7--7--5--5--5--5--2--2--2--2--2--2--2--2--
E|--5--5--5--5--3--3--3--3--0--0--0--0--0--0--0--0--

Stave 4:

E|--------------------------------------------------
A|--------------------------------------------------
D|--------------------------------------------------
G|--7--7--7--7--5--5--5--5--9--9--9--9--9--9--9--9--
B|--7--7--7--7--5--5--5--5--9--9--9--9--9--9--9--9--
E|--5--5--5--5--3--3--3--3--7--7--7--7--7--7--7--7--

http://www.guitartabcreator.com
Guitar Tab Creator is intended to store guitar tab created through the tool. It currently does not support in-line text editing. Any text you place in here will be lost. If you need to comment on your tab, please use the "Tab Notes" section located below.