Hard Times (110 BPM)

(/) Slide Up  (\) Slide Down  (h) Hammer On  (p) Pull Off  (b) Bend (r) Release (v) Vibrato

Stave 1:

E|--------------------------------
A|--------------------------------
D|--------------------------------
G|--7--7--7--7--7--7--7--7--------
B|--7--7--7--7--7--7--7--7--------
E|--5--5--5--5--5--5--5--5--8--5--

Stave 2:

E|--------------------------------
A|--------------------------------
D|--------------------------------
G|--7--7--7--7--7--7--7-----------
B|--7--7--7--7--7--7--7--5--7--7--
E|--5--5--5--5--5--5--5-----------

Stave 3:

E|-----------------------------------
A|-----------------------------------
D|--9--9--9--9--7--7--7--7--7--7--7--
G|--9--9--9--9--7--7--7--7--7--7--7--
B|--7--7--7--7--5--5--5--5--5--5--5--
E|-----------------------------------

Stave 4:

E|--------------
A|--------------
D|--------------
G|--7--7--7--7--
B|--7--7--7--7--
E|--5--5--5--5--

Stave 5:

E|--------------------------------------------------------------------------
A|--------------------------------------------------------------------------
D|--9--8--7--9--------9--8--7-----------9--8--7-----------9--8--7--7--8--9--
G|--9--8--7--9--8--7--9--8--7--7--8--9--9--8--7--9--8--7--9--8--7--7--8--9--
B|--7--6--5--9--8--7--7--6--5--7--8--9--7--6--5--9--8--7--7--6--5--5--6--7--
E|-----------7--6--5-----------5--6--7-----------7--6--5--------------------

http://www.guitartabcreator.com
Guitar Tab Creator is intended to store guitar tab created through the tool. It currently does not support in-line text editing. Any text you place in here will be lost. If you need to comment on your tab, please use the "Tab Notes" section located below.