Fictions (125 BPM)

(/) Slide Up  (\) Slide Down  (h) Hammer On  (p) Pull Off  (b) Bend (r) Release (v) Vibrato

Stave 1:

E|--2--0--0--
A|--3--2--0--
D|--4--2--1--
G|--4--2--2--
B|--2--0--2--
E|--------0--

Stave 2:

E|--3--2--0--0--
A|--3--3--0--2--
D|--0--2--0--2--
G|--0--0--2--2--
B|--2-----2--0--
E|--3-----0-----

Stave 3:

E|--------------
A|--------------
D|-----7--------
G|--5--7--2--7--
B|--5--5--2--7--
E|--3-----0--5--

http://www.guitartabcreator.com
Guitar Tab Creator is intended to store guitar tab created through the tool. It currently does not support in-line text editing. Any text you place in here will be lost. If you need to comment on your tab, please use the "Tab Notes" section located below.