December's Turning Black (73 BPM)

(/) Slide Up  (\) Slide Down  (h) Hammer On  (p) Pull Off  (b) Bend (r) Release (v) Vibrato

Stave 1:

E|--3--2--0--0--
A|--3--3--1--1--
D|--0--2--2--0--
G|--0--0--2--2--
B|--2-----0--3--
E|--3-----------

Stave 2:

E|--2--0--0--3--
A|--3--1--1--3--
D|--2--2--0--0--
G|--0--2--2--0--
B|-----0--3--2--
E|-----------3--

Stave 3:

E|--2--0--0--2--
A|--3--1--1--3--
D|--2--2--0--2--
G|--0--2--2--0--
B|-----0--3-----
E|--------------

http://www.guitartabcreator.com
Guitar Tab Creator is intended to store guitar tab created through the tool. It currently does not support in-line text editing. Any text you place in here will be lost. If you need to comment on your tab, please use the "Tab Notes" section located below.