untitled 5

(/) Slide Up  (\) Slide Down  (h) Hammer On  (p) Pull Off  (b) Bend (r) Release (v) Vibrato

verse
E|------------------------------------------------|
B|------------------------------------------------|
G|------------------------------------------------|
D|----------10-12-12br11r10-12---------10\9-9-----|
A|----10h12----------------------10h12--------10--|
D|--0--------------------------0------------------|

chorus

E|-------------------|||--------------------|
B|-------------------|||--------------------|
G|-------------------|||--------------------|
D|-----5/7-7\5-5\4---|||----5\4-4p0-2-------|
A|-----3/5-5\3-3\2---|||----3\2-2p0-0-------|
D|--0--0---0---0-----|||--0-----------------|

bridge solo

E|---------------|-------------------------------------------------|
B|---------------|-------------------------------------------------|
G|---------------|----13b-12b-10b----10-12--13b-12b-10b-9-9/10-----|
D|---------------|----------------12---------------------------12--|
A|-----5----2/3--|-------------------------------------------------|
D|--0--0--0-2/3--|--0----------------------------------------------|

Bass Verse/chorus| Bass Bridge/solo

G|-----------------|---------------|
D|-----------------|---------------|
A|----3-5-3--------|-----5---------|
D|--0---------2-0--|--0-----0-2/3--|
ring ring
Guitar Tab Creator is intended to store guitar tab created through the tool. It currently does not support in-line text editing. Any text you place in here will be lost. If you need to comment on your tab, please use the "Tab Notes" section located below.